Игра левой рукой на гитаре – Развитие техники

Игра левой рукой на гитаре

Игра левой рукой на гитаре должна быть очень качественной. И поэтому, чтобы игра левой рукой на гитаре была качественной я подготовил для вас ещё несколько интересных упражнений.

Как Вы уже понимаете эта статья будет о развитии пальцев левой руки. Я уже писал подобные темы много раз и уже давал некоторые упражнения, как например в статье “Развитие пальцев для лучшей игры на гитаре

Мы уже умеем играть гаммы типа 1-2-3-4 – хроматические ходы, их так же называют “пауками” о них у меня так же есть заметка “Как развить скорость пальцев…“. Да, конечно, мы можем играть эту гамму даже наоборот! Мы это можно играть чисто и быстро, но большинство из нас даже не пытаются других перестановок.

Вообще, цель курса, дать Вам ещё как можно больше других “Паучков” Там нет особого разнообразия, но ваша техника будет развиваться от этого довольно значительно. Первый шаг заключается в измерении ваших текущих способностей. Ниже приведен список всех комбинаций, чтобы Вы могли практиковаться с ними:

01. 1-2-3-4
02. 1-2-4-3
03. 1-3-2-4
04. 1-3-4-2
05. 1-4-2-3
06. 1-4-3-2
07. 2-1-3-4
08. 2-1-4-3
09. 2-3-1-4
10. 2-3-4-1
11. 2-4-1-3
12. 2-4-3-1
13. 3-1-2-4
14. 3-1-4-2
15. 3-2-1-4
16. 3-2-4-1
17. 3-4-1-2
18. 3-4-2-1
19. 4-1-2-3
20. 4-1-3-2
21. 4-2-1-3
22. 4-2-3-1
23. 4-3-1-2
24. 4-3-2-1

Начинайте играть всё это дело по всем правилам, играя шестнадцатыми нотами примерно со скоростью 70 ударов. Сейчас покажу всё более подробно на примере. Для эксперимента я взял “паука” под номером 16 — 3-2-4-1. Играть я его буду так:

E|-----------------------------------------3-2-4-1
B|---------------------------------3-2-4-1--------
G|-------------------------3-2-4-1----------------
D|-----------------3-2-4-1------------------------
A|---------3-2-4-1--------------------------------
E|-3-2-4-1----------------------------------------
E|-3-2-4-1----------------------------------------
B|---------3-2-4-1--------------------------------
G|-----------------3-2-4-1------------------------
D|-------------------------3-2-4-1----------------
A|---------------------------------3-2-4-1--------
E|-----------------------------------------3-2-4-1

Ну что, сыграли? Надеюсь было всё чисто и ритмично?!

Суть обучения здесь с в следующем. Ваши пальцы уже привыкли к кошерному “пауку” 1-2-3-4 и поэтому будет немного тяжко играть, что-то новенькое с той же быстрой скоростью. Поэтому практика этих новых комбинаций, хорошо разовьет ваши навыки. Уверен на 100%! Вы должны чувствовать комфорт при игре всех “пауков” на диапазоне скорости от 50 до 160 ударов шестнадцатыми нотами.

Старайтесь постоянно наращивать свою скорость игры, но при всём при этом сохраняйте качество и гладкость. Качество всегда важнее скорости.

На этом собственно и всё. Удачи!

Добавить комментарий

Ваш адрес email не будет опубликован.