Обозначения в табулатурах

Обозначения в табулатурах

Про чтение табулатур я уже рассказывал в своей статье “Чтение табулатур и обозначений“. Теперь мне хочется поведать о том, какие есть обозначения в табулатурах, которые записываются не в программах типа “Guitar Pro“, вручную, с помощью таких знаков: -, 12345678980,h,b,/, и так далее…

Hammer on

Приём hammer on  играется левой рукой. Для этого проигрывается к примеру первый лад первой струны, а пальцем левой руки вы бьёте последующему ладу так, чтобы он звучал. Ну или как-то так =). О том, как делать этот приём можете прочитать “Как играть Hammer on и Pull off“. Вот как выглядит запись этого приёма в табулатурах:

e----------------------5h7----
B------------------5h7--------
G--------------5h7------------
D----------5h7----------------
A------5h7--------------------
E--5h7------------------------

Pull off

Это примерно такой же приём игры на гитаре что и предыдущий. Как он играется вы можете увидеть так же из статьи, ссылку на которую Вы могли видеть выше…

Так вот, вот как этот приём обозначается:

e----------------------7p5----
B------------------7p5--------
G--------------7p5------------
D----------7p5----------------
A------7p5--------------------
E--7p5------------------------

Бенд

Собственно этот приём вы уже могли видеть не раз. В программах типа Guitar Pro записывается бенд в виде стрелки вверх или вниз (но второй способ реже).  В письменных табах запись выглядит просто буквой “b” по первой букве названия. Вот как выглядит в деле…

e-----------------------------
B-----------------------------
G--7b----7b-------------------
D--------------7b----7b-------
A-----------------------------
E-----------------------------

Так же используется ещё один вид записи буквой “r”. Это показывает что нужно вернуться с данной ноты на предыдущую. На записи это выглядит так:

e-----------------------------
B-----------------------------
G--7r5---7r5------------------
D--------------7r5---7r5------
A-----------------------------
E-----------------------------

Слайд вверх и вниз

Слайд любой обозначается обычным слешем, т.е. “/”. Слайд, как вы знаете это скольжение. Производится очень просто. Вы проигрываете ноту А и скользите до ноты В. Запись выглядит так:

e-----------------------------
B-----------------------------
G--7/9---7/9------------------
D--------------7/9---7/9------
A-----------------------------
E-----------------------------

или
e-----------------------------
B-----------------------------
G--7/5---7/5------------------
D--------------7/5---7/5------
A-----------------------------
E-----------------------------

Вибрато

Данный приём один из самых употребляемых при игре на гитаре. Им можно украшать любую композицию. Обозначается на табулатурах двумя способами. Либо “~” либо “v”.

e-----------------------------
B-----------------------------
G--7v-------------------------
D--------------------7~~~-----
A-----------------------------
E-----------------------------

Теппинг

Это приём состоящий из hammer-ов и Pull-ов. Записывается буквой “t”

e-----------------------------
B-----------------------------
G--7t---7t---7t---------------
D-----------------------------
A-----------------------------
E-----------------------------

Добавить комментарий

Ваш адрес email не будет опубликован.